ISO-10303-21;
HEADER;
FILE_DESCRIPTION (( 'STEP AP214' ),
    '1' );
FILE_NAME ('PT-W59.STEP',
    '2015-09-24T08:09:35',
    ( '' ),
    ( '' ),
    'SwSTEP 2.0',
    'SolidWorks 2013',
    '' );
FILE_SCHEMA (( 'AUTOMOTIVE_DESIGN' ));
ENDSEC;

DATA;
#1 = CARTESIAN_POINT ( 'NONE',  ( 0.0000000000000000000, 0.0000000000000000000, 0.0000000000000000000 ) ) ;
#2 = ADVANCED_FACE ( 'NONE', ( #3 ), #341, .T. ) ;
#3 = FACE_OUTER_BOUND ( 'NONE', #233, .T. ) ;
#4 = DIRECTION ( 'NONE',  ( 0.0000000000000000000, 0.0000000000000000000, -1.000000000000000000 ) ) ;
#5 = LINE ( 'NONE', #208, #115 ) ;
#6 = PRESENTATION_LAYER_ASSIGNMENT (  '', '', ( #313 ) ) ;
#7 = DIRECTION ( 'NONE',  ( -0.0000000000000000000, -0.0000000000000000000, 1.000000000000000000 ) ) ;
#8 = UNCERTAINTY_MEASURE_WITH_UNIT (LENGTH_MEASURE( 1.000000000000000100E-005 ), #149, 'distance_accuracy_value', 'NONE');
#9 = CARTESIAN_POINT ( 'NONE',  ( -0.7500000000000006700, 0.0000000000000000000, 10.00000000000000000 ) ) ;
#10 = ORIENTED_EDGE ( 'NONE', *, *, #305, .T. ) ;
#11 = DIRECTION ( 'NONE',  ( 1.000000000000000000, 0.0000000000000000000, 0.0000000000000000000 ) ) ;
#12 = CIRCLE ( 'NONE', #19, 0.7500000000000006700 ) ;
#13 = CARTESIAN_POINT ( 'NONE',  ( 0.0000000000000000000, 0.0000000000000000000, 9.950000000000001100 ) ) ;
#14 = DIRECTION ( 'NONE',  ( 0.0000000000000000000, 0.0000000000000000000, 1.000000000000000000 ) ) ;
#15 = SURFACE_STYLE_USAGE ( .BOTH. , #138 ) ;
#16 = PRODUCT_DEFINITION_SHAPE ( 'NONE', 'NONE',  #383 ) ;
#17 = EDGE_LOOP ( 'NONE', ( #249, #114 ) ) ;
#18 = EDGE_CURVE ( 'NONE', #241, #32, #49, .T. ) ;
#19 = AXIS2_PLACEMENT_3D ( 'NONE', #113, #14, #200 ) ;
#20 = ORIENTED_EDGE ( 'NONE', *, *, #292, .F. ) ;
#21 = SURFACE_STYLE_FILL_AREA ( #161 ) ;
#22 = MECHANICAL_DESIGN_GEOMETRIC_PRESENTATION_REPRESENTATION (  '', ( #236 ), #73 ) ;
#23 =( NAMED_UNIT ( * ) PLANE_ANGLE_UNIT ( ) SI_UNIT ( $, .RADIAN. ) );
#24 = SURFACE_STYLE_USAGE ( .BOTH. , #193 ) ;
#25 = DIRECTION ( 'NONE',  ( 1.000000000000000000, 0.0000000000000000000, 0.0000000000000000000 ) ) ;
#26 = DIRECTION ( 'NONE',  ( 0.0000000000000000000, 0.0000000000000000000, 1.000000000000000000 ) ) ;
#27 = EDGE_CURVE ( 'NONE', #132, #355, #351, .T. ) ;
#28 = ORIENTED_EDGE ( 'NONE', *, *, #231, .F. ) ;
#29 = CARTESIAN_POINT ( 'NONE',  ( 0.4244503531721835500, 0.0000000000000000000, 0.0000000000000000000 ) ) ;
#30 =( LENGTH_UNIT ( ) NAMED_UNIT ( * ) SI_UNIT ( .MILLI., .METRE. ) );
#31 = PLANE ( 'NONE',  #320 ) ;
#32 = VERTEX_POINT ( 'NONE', #144 ) ;
#33 = COLOUR_RGB ( '',1.000000000000000000, 1.000000000000000000, 1.000000000000000000 ) ;
#34 = VECTOR ( 'NONE', #147, 1000.000000000000000 ) ;
#35 =( NAMED_UNIT ( * ) PLANE_ANGLE_UNIT ( ) SI_UNIT ( $, .RADIAN. ) );
#36 = COLOUR_RGB ( '',0.5019607843137254800, 1.000000000000000000, 0.5019607843137254800 ) ;
#37 = DIRECTION ( 'NONE',  ( -0.0000000000000000000, -0.0000000000000000000, 1.000000000000000000 ) ) ;
#38 = DIRECTION ( 'NONE',  ( 0.0000000000000000000, 0.0000000000000000000, 1.000000000000000000 ) ) ;
#39 = UNCERTAINTY_MEASURE_WITH_UNIT (LENGTH_MEASURE( 1.000000000000000100E-005 ), #335, 'distance_accuracy_value', 'NONE');
#40 = FILL_AREA_STYLE ('',( #369 ) ) ;
#41 = EDGE_LOOP ( 'NONE', ( #166, #170 ) ) ;
#42 = CARTESIAN_POINT ( 'NONE',  ( 0.0000000000000000000, 0.0000000000000000000, 0.0000000000000000000 ) ) ;
#43 = DIRECTION ( 'NONE',  ( 0.0000000000000000000, 0.0000000000000000000, 1.000000000000000000 ) ) ;
#44 = ADVANCED_FACE ( 'NONE', ( #118 ), #151, .F. ) ;
#45 = DIRECTION ( 'NONE',  ( 1.000000000000000000, 0.0000000000000000000, 0.0000000000000000000 ) ) ;
#46 = VERTEX_POINT ( 'NONE', #319 ) ;
#47 = EDGE_CURVE ( 'NONE', #263, #216, #260, .T. ) ;
#48 = CIRCLE ( 'NONE', #183, 0.4244503531721835500 ) ;
#49 = CIRCLE ( 'NONE', #135, 0.7500000000000006700 ) ;
#50 = FILL_AREA_STYLE ('',( #346 ) ) ;
#51 =( GEOMETRIC_REPRESENTATION_CONTEXT ( 3 ) GLOBAL_UNCERTAINTY_ASSIGNED_CONTEXT ( ( #271 ) ) GLOBAL_UNIT_ASSIGNED_CONTEXT ( ( #187, #23, #254 ) ) REPRESENTATION_CONTEXT ( 'NONE', 'WORKASPACE' ) );
#52 = VERTEX_POINT ( 'NONE', #94 ) ;
#53 = EDGE_CURVE ( 'NONE', #52, #46, #68, .T. ) ;
#54 = CARTESIAN_POINT ( 'NONE',  ( 0.4244503531721835500, 0.0000000000000000000, -10.00000000000000000 ) ) ;
#55 = EDGE_LOOP ( 'NONE', ( #308, #246, #111, #344 ) ) ;
#56 = CARTESIAN_POINT ( 'NONE',  ( 0.4244503531721835500, 0.0000000000000000000, -10.00000000000000000 ) ) ;
#57 = COLOUR_RGB ( '',0.5019607843137254800, 0.5019607843137254800, 0.5019607843137254800 ) ;
#58 = PRESENTATION_LAYER_ASSIGNMENT (  '', '', ( #220 ) ) ;
#59 = APPLICATION_CONTEXT ( 'automotive_design' ) ;
#60 = DIRECTION ( 'NONE',  ( -1.000000000000000000, 0.0000000000000000000, 0.0000000000000000000 ) ) ;
#61 = AXIS2_PLACEMENT_3D ( 'NONE', #171, #380, #25 ) ;
#62 = PRESENTATION_STYLE_ASSIGNMENT (( #160 ) ) ;
#63 = PRESENTATION_STYLE_ASSIGNMENT (( #326 ) ) ;
#64 = SURFACE_STYLE_USAGE ( .BOTH. , #205 ) ;
#65 = PLANE ( 'NONE',  #173 ) ;
#66 = EDGE_LOOP ( 'NONE', ( #179, #203, #96, #255 ) ) ;
#67 = SURFACE_STYLE_USAGE ( .BOTH. , #207 ) ;
#68 = CIRCLE ( 'NONE', #120, 0.3919416137645387300 ) ;
#69 = FILL_AREA_STYLE_COLOUR ( '', #350 ) ;
#70 = EDGE_CURVE ( 'NONE', #347, #241, #81, .T. ) ;
#71 = DIRECTION ( 'NONE',  ( 0.0000000000000000000, 0.0000000000000000000, 1.000000000000000000 ) ) ;
#72 = PLANE ( 'NONE',  #299 ) ;
#73 =( GEOMETRIC_REPRESENTATION_CONTEXT ( 3 ) GLOBAL_UNCERTAINTY_ASSIGNED_CONTEXT ( ( #189 ) ) GLOBAL_UNIT_ASSIGNED_CONTEXT ( ( #281, #336, #301 ) ) REPRESENTATION_CONTEXT ( 'NONE', 'WORKASPACE' ) );
#74 =( NAMED_UNIT ( * ) PLANE_ANGLE_UNIT ( ) SI_UNIT ( $, .RADIAN. ) );
#75 = SURFACE_STYLE_USAGE ( .BOTH. , #280 ) ;
#76 = EDGE_CURVE ( 'NONE', #327, #32, #128, .T. ) ;
#77 = CARTESIAN_POINT ( 'NONE',  ( 0.3919416137645387300, 0.0000000000000000000, 9.950000000000001100 ) ) ;
#78 = DIRECTION ( 'NONE',  ( -1.000000000000000000, 0.0000000000000000000, -0.0000000000000000000 ) ) ;
#79 = ORIENTED_EDGE ( 'NONE', *, *, #292, .T. ) ;
#80 = VECTOR ( 'NONE', #7, 1000.000000000000000 ) ;
#81 = LINE ( 'NONE', #243, #371 ) ;
#82 = FILL_AREA_STYLE ('',( #159 ) ) ;
#83 =( LENGTH_UNIT ( ) NAMED_UNIT ( * ) SI_UNIT ( .MILLI., .METRE. ) );
#84 = PRODUCT_RELATED_PRODUCT_CATEGORY ( 'part', '', ( #110 ) ) ;
#85 = ORIENTED_EDGE ( 'NONE', *, *, #103, .F. ) ;
#86 = STYLED_ITEM ( 'NONE', ( #192 ), #44 ) ;
#87 = CYLINDRICAL_SURFACE ( 'NONE', #181, 0.4244503531721835500 ) ;
#88 = EDGE_LOOP ( 'NONE', ( #303, #294, #79, #275 ) ) ;
#89 = CIRCLE ( 'NONE', #169, 0.4244503531721835500 ) ;
#90 = STYLED_ITEM ( 'NONE', ( #219 ), #102 ) ;
#91 = DIRECTION ( 'NONE',  ( 0.0000000000000000000, 0.0000000000000000000, 1.000000000000000000 ) ) ;
#92 = ORIENTED_EDGE ( 'NONE', *, *, #76, .F. ) ;
#93 = MECHANICAL_DESIGN_GEOMETRIC_PRESENTATION_REPRESENTATION (  '', ( #248 ), #262 ) ;
#94 = CARTESIAN_POINT ( 'NONE',  ( -0.3919416137645387300, 4.799900427493905600E-017, 10.00000000000000000 ) ) ;
#95 = EDGE_CURVE ( 'NONE', #327, #347, #387, .T. ) ;
#96 = ORIENTED_EDGE ( 'NONE', *, *, #310, .T. ) ;
#97 = DIRECTION ( 'NONE',  ( 1.000000000000000000, 0.0000000000000000000, 0.0000000000000000000 ) ) ;
#98 = DIRECTION ( 'NONE',  ( 1.000000000000000000, 0.0000000000000000000, 0.0000000000000000000 ) ) ;
#99 = AXIS2_PLACEMENT_3D ( 'NONE', #42, #91, #117 ) ;
#100 = ORIENTED_EDGE ( 'NONE', *, *, #95, .T. ) ;
#101 = SURFACE_SIDE_STYLE ('',( #287 ) ) ;
#102 = ADVANCED_FACE ( 'NONE', ( #242 ), #87, .T. ) ;
#103 = EDGE_CURVE ( 'NONE', #386, #162, #89, .T. ) ;
#104 = DIRECTION ( 'NONE',  ( -1.000000000000000000, 0.0000000000000000000, 0.0000000000000000000 ) ) ;
#105 = CARTESIAN_POINT ( 'NONE',  ( 0.0000000000000000000, 0.0000000000000000000, 9.950000000000001100 ) ) ;
#106 = COLOUR_RGB ( '',0.5019607843137254800, 1.000000000000000000, 0.5019607843137254800 ) ;
#107 = DIRECTION ( 'NONE',  ( -0.0000000000000000000, -0.0000000000000000000, 1.000000000000000000 ) ) ;
#108 = PRESENTATION_LAYER_ASSIGNMENT (  '', '', ( #248 ) ) ;
#109 = CARTESIAN_POINT ( 'NONE',  ( 0.0000000000000000000, 0.0000000000000000000, -10.00000000000000000 ) ) ;
#110 = PRODUCT ( 'PT-W59', 'PT-W59', '', ( #284 ) ) ;
#111 = ORIENTED_EDGE ( 'NONE', *, *, #317, .T. ) ;
#112 = AXIS2_PLACEMENT_3D ( 'NONE', #357, #353, #60 ) ;
#113 = CARTESIAN_POINT ( 'NONE',  ( 0.0000000000000000000, 0.0000000000000000000, 0.0000000000000000000 ) ) ;
#114 = ORIENTED_EDGE ( 'NONE', *, *, #317, .F. ) ;
#115 = VECTOR ( 'NONE', #152, 1000.000000000000000 ) ;
#116 = CYLINDRICAL_SURFACE ( 'NONE', #264, 0.4244503531721835500 ) ;
#117 = DIRECTION ( 'NONE',  ( 1.000000000000000000, 0.0000000000000000000, 0.0000000000000000000 ) ) ;
#118 = FACE_OUTER_BOUND ( 'NONE', #88, .T. ) ;
#119 = CARTESIAN_POINT ( 'NONE',  ( 0.0000000000000000000, 0.0000000000000000000, 9.950000000000001100 ) ) ;
#120 = AXIS2_PLACEMENT_3D ( 'NONE', #153, #237, #97 ) ;
#121 = ORIENTED_EDGE ( 'NONE', *, *, #18, .T. ) ;
#122 = DIRECTION ( 'NONE',  ( 1.000000000000000000, 0.0000000000000000000, 0.0000000000000000000 ) ) ;
#123 = FILL_AREA_STYLE ('',( #69 ) ) ;
#124 = ADVANCED_FACE ( 'NONE', ( #318 ), #116, .T. ) ;
#125 = ORIENTED_EDGE ( 'NONE', *, *, #53, .T. ) ;
#126 = LINE ( 'NONE', #54, #190 ) ;
#127 = DIRECTION ( 'NONE',  ( 1.000000000000000000, 0.0000000000000000000, 0.0000000000000000000 ) ) ;
#128 = LINE ( 'NONE', #269, #34 ) ;
#129 = CARTESIAN_POINT ( 'NONE',  ( 0.0000000000000000000, 0.0000000000000000000, -10.00000000000000000 ) ) ;
#130 = DIRECTION ( 'NONE',  ( -0.0000000000000000000, -0.0000000000000000000, -1.000000000000000000 ) ) ;
#131 = AXIS2_PLACEMENT_3D ( 'NONE', #13, #107, #45 ) ;
#132 = VERTEX_POINT ( 'NONE', #29 ) ;
#133 = ADVANCED_BREP_SHAPE_REPRESENTATION ( 'PT-W59', ( #293, #99 ), #202 ) ;
#134 = CARTESIAN_POINT ( 'NONE',  ( 0.3919416137645387300, 0.0000000000000000000, 9.950000000000001100 ) ) ;
#135 = AXIS2_PLACEMENT_3D ( 'NONE', #290, #382, #314 ) ;
#136 = DIRECTION ( 'NONE',  ( 0.0000000000000000000, 0.0000000000000000000, 1.000000000000000000 ) ) ;
#137 = ADVANCED_FACE ( 'NONE', ( #142, #291 ), #65, .T. ) ;
#138 = SURFACE_SIDE_STYLE ('',( #257 ) ) ;
#139 = EDGE_LOOP ( 'NONE', ( #311, #199 ) ) ;
#140 = CARTESIAN_POINT ( 'NONE',  ( 0.0000000000000000000, 0.0000000000000000000, 0.0000000000000000000 ) ) ;
#141 = PRESENTATION_LAYER_ASSIGNMENT (  '', '', ( #90 ) ) ;
#142 = FACE_BOUND ( 'NONE', #41, .T. ) ;
#143 =( NAMED_UNIT ( * ) SI_UNIT ( $, .STERADIAN. ) SOLID_ANGLE_UNIT ( ) );
#144 = CARTESIAN_POINT ( 'NONE',  ( 0.7500000000000006700, 9.184850993605157100E-017, 0.0000000000000000000 ) ) ;
#145 = AXIS2_PLACEMENT_3D ( 'NONE', #334, #136, #11 ) ;
#146 =( GEOMETRIC_REPRESENTATION_CONTEXT ( 3 ) GLOBAL_UNCERTAINTY_ASSIGNED_CONTEXT ( ( #221 ) ) GLOBAL_UNIT_ASSIGNED_CONTEXT ( ( #232, #258, #201 ) ) REPRESENTATION_CONTEXT ( 'NONE', 'WORKASPACE' ) );
#147 = DIRECTION ( 'NONE',  ( -0.0000000000000000000, -0.0000000000000000000, -1.000000000000000000 ) ) ;
#148 = ORIENTED_EDGE ( 'NONE', *, *, #253, .F. ) ;
#149 =( LENGTH_UNIT ( ) NAMED_UNIT ( * ) SI_UNIT ( .MILLI., .METRE. ) );
#150 = CIRCLE ( 'NONE', #168, 0.4244503531721835500 ) ;
#151 = CYLINDRICAL_SURFACE ( 'NONE', #325, 0.3919416137645387300 ) ;
#152 = DIRECTION ( 'NONE',  ( -0.0000000000000000000, -0.0000000000000000000, 1.000000000000000000 ) ) ;
#153 = CARTESIAN_POINT ( 'NONE',  ( 0.0000000000000000000, 0.0000000000000000000, 10.00000000000000000 ) ) ;
#154 = FILL_AREA_STYLE_COLOUR ( '', #329 ) ;
#155 = ORIENTED_EDGE ( 'NONE', *, *, #195, .T. ) ;
#156 = FACE_OUTER_BOUND ( 'NONE', #229, .T. ) ;
#157 = DIRECTION ( 'NONE',  ( 0.0000000000000000000, 0.0000000000000000000, -1.000000000000000000 ) ) ;
#158 = MECHANICAL_DESIGN_GEOMETRIC_PRESENTATION_REPRESENTATION (  '', ( #90 ), #322 ) ;
#159 = FILL_AREA_STYLE_COLOUR ( '', #316 ) ;
#160 = SURFACE_STYLE_USAGE ( .BOTH. , #276 ) ;
#161 = FILL_AREA_STYLE ('',( #302 ) ) ;
#162 = VERTEX_POINT ( 'NONE', #177 ) ;
#163 = DIRECTION ( 'NONE',  ( 1.000000000000000000, 0.0000000000000000000, -0.0000000000000000000 ) ) ;
#164 = ADVANCED_FACE ( 'NONE', ( #191, #251 ), #72, .F. ) ;
#165 = MECHANICAL_DESIGN_GEOMETRIC_PRESENTATION_REPRESENTATION (  '', ( #352 ), #309 ) ;
#166 = ORIENTED_EDGE ( 'NONE', *, *, #222, .F. ) ;
#167 = COLOUR_RGB ( '',1.000000000000000000, 1.000000000000000000, 1.000000000000000000 ) ;
#168 = AXIS2_PLACEMENT_3D ( 'NONE', #217, #374, #372 ) ;
#169 = AXIS2_PLACEMENT_3D ( 'NONE', #235, #4, #362 ) ;
#170 = ORIENTED_EDGE ( 'NONE', *, *, #53, .F. ) ;
#171 = CARTESIAN_POINT ( 'NONE',  ( 0.0000000000000000000, 0.0000000000000000000, 0.0000000000000000000 ) ) ;
#172 = SURFACE_STYLE_FILL_AREA ( #123 ) ;
#173 = AXIS2_PLACEMENT_3D ( 'NONE', #176, #180, #388 ) ;
#174 = ORIENTED_EDGE ( 'NONE', *, *, #390, .T. ) ;
#175 = CARTESIAN_POINT ( 'NONE',  ( 0.0000000000000000000, 0.0000000000000000000, 10.00000000000000000 ) ) ;
#176 = CARTESIAN_POINT ( 'NONE',  ( 0.0000000000000000000, 0.0000000000000000000, 10.00000000000000000 ) ) ;
#177 = CARTESIAN_POINT ( 'NONE',  ( -0.4244503531721835500, 5.198017664092781900E-017, -10.00000000000000000 ) ) ;
#178 = ADVANCED_FACE ( 'NONE', ( #212 ), #31, .T. ) ;
#179 = ORIENTED_EDGE ( 'NONE', *, *, #95, .F. ) ;
#180 = DIRECTION ( 'NONE',  ( 0.0000000000000000000, 0.0000000000000000000, 1.000000000000000000 ) ) ;
#181 = AXIS2_PLACEMENT_3D ( 'NONE', #129, #210, #98 ) ;
#182 =( NAMED_UNIT ( * ) PLANE_ANGLE_UNIT ( ) SI_UNIT ( $, .RADIAN. ) );
#183 = AXIS2_PLACEMENT_3D ( 'NONE', #140, #288, #345 ) ;
#184 = CARTESIAN_POINT ( 'NONE',  ( 0.0000000000000000000, 0.0000000000000000000, 9.950000000000001100 ) ) ;
#185 = ORIENTED_EDGE ( 'NONE', *, *, #47, .F. ) ;
#186 = CARTESIAN_POINT ( 'NONE',  ( -0.7500000000000006700, 0.0000000000000000000, 0.0000000000000000000 ) ) ;
#187 =( LENGTH_UNIT ( ) NAMED_UNIT ( * ) SI_UNIT ( .MILLI., .METRE. ) );
#188 = ORIENTED_EDGE ( 'NONE', *, *, #70, .T. ) ;
#189 = UNCERTAINTY_MEASURE_WITH_UNIT (LENGTH_MEASURE( 1.000000000000000100E-005 ), #281, 'distance_accuracy_value', 'NONE');
#190 = VECTOR ( 'NONE', #227, 1000.000000000000000 ) ;
#191 = FACE_OUTER_BOUND ( 'NONE', #139, .T. ) ;
#192 = PRESENTATION_STYLE_ASSIGNMENT (( #64 ) ) ;
#193 = SURFACE_SIDE_STYLE ('',( #365 ) ) ;
#194 = MECHANICAL_DESIGN_GEOMETRIC_PRESENTATION_REPRESENTATION (  '', ( #313 ), #51 ) ;
#195 = EDGE_CURVE ( 'NONE', #263, #52, #5, .T. ) ;
#196 = EDGE_LOOP ( 'NONE', ( #321, #10 ) ) ;
#197 = PRODUCT_DEFINITION_FORMATION_WITH_SPECIFIED_SOURCE ( 'ÈÎºÎ', '', #110, .NOT_KNOWN. ) ;
#198 = CARTESIAN_POINT ( 'NONE',  ( 0.7500000000000006700, 9.184850993605157100E-017, 10.00000000000000000 ) ) ;
#199 = ORIENTED_EDGE ( 'NONE', *, *, #310, .F. ) ;
#200 = DIRECTION ( 'NONE',  ( 1.000000000000000000, 0.0000000000000000000, 0.0000000000000000000 ) ) ;
#201 =( NAMED_UNIT ( * ) SI_UNIT ( $, .STERADIAN. ) SOLID_ANGLE_UNIT ( ) );
#202 =( GEOMETRIC_REPRESENTATION_CONTEXT ( 3 ) GLOBAL_UNCERTAINTY_ASSIGNED_CONTEXT ( ( #368 ) ) GLOBAL_UNIT_ASSIGNED_CONTEXT ( ( #83, #286, #143 ) ) REPRESENTATION_CONTEXT ( 'NONE', 'WORKASPACE' ) );
#203 = ORIENTED_EDGE ( 'NONE', *, *, #76, .T. ) ;
#204 = CARTESIAN_POINT ( 'NONE',  ( 0.0000000000000000000, 0.0000000000000000000, 9.950000000000001100 ) ) ;
#205 = SURFACE_SIDE_STYLE ('',( #268 ) ) ;
#206 =( GEOMETRIC_REPRESENTATION_CONTEXT ( 3 ) GLOBAL_UNCERTAINTY_ASSIGNED_CONTEXT ( ( #8 ) ) GLOBAL_UNIT_ASSIGNED_CONTEXT ( ( #149, #182, #389 ) ) REPRESENTATION_CONTEXT ( 'NONE', 'WORKASPACE' ) );
#207 = SURFACE_SIDE_STYLE ('',( #379 ) ) ;
#208 = CARTESIAN_POINT ( 'NONE',  ( -0.3919416137645387300, 4.799900427493905600E-017, 9.950000000000001100 ) ) ;
#209 = ADVANCED_FACE ( 'NONE', ( #156 ), #381, .F. ) ;
#210 = DIRECTION ( 'NONE',  ( -0.0000000000000000000, -0.0000000000000000000, 1.000000000000000000 ) ) ;
#211 = PRESENTATION_LAYER_ASSIGNMENT (  '', '', ( #86 ) ) ;
#212 = FACE_OUTER_BOUND ( 'NONE', #196, .T. ) ;
#213 = UNCERTAINTY_MEASURE_WITH_UNIT (LENGTH_MEASURE( 1.000000000000000100E-005 ), #307, 'distance_accuracy_value', 'NONE');
#214 = PLANE ( 'NONE',  #270 ) ;
#215 = CARTESIAN_POINT ( 'NONE',  ( 0.0000000000000000000, 0.0000000000000000000, 10.00000000000000000 ) ) ;
#216 = VERTEX_POINT ( 'NONE', #134 ) ;
#217 = CARTESIAN_POINT ( 'NONE',  ( 0.0000000000000000000, 0.0000000000000000000, -10.00000000000000000 ) ) ;
#218 = CIRCLE ( 'NONE', #145, 0.7500000000000006700 ) ;
#219 = PRESENTATION_STYLE_ASSIGNMENT (( #67 ) ) ;
#220 = STYLED_ITEM ( 'NONE', ( #340 ), #133 ) ;
#221 = UNCERTAINTY_MEASURE_WITH_UNIT (LENGTH_MEASURE( 1.000000000000000100E-005 ), #232, 'distance_accuracy_value', 'NONE');
#222 = EDGE_CURVE ( 'NONE', #46, #52, #256, .T. ) ;
#223 = ORIENTED_EDGE ( 'NONE', *, *, #47, .T. ) ;
#224 = FACE_OUTER_BOUND ( 'NONE', #66, .T. ) ;
#225 = STYLED_ITEM ( 'NONE', ( #259 ), #124 ) ;
#226 = APPLICATION_CONTEXT ( 'automotive_design' ) ;
#227 = DIRECTION ( 'NONE',  ( -0.0000000000000000000, -0.0000000000000000000, 1.000000000000000000 ) ) ;
#228 = DIRECTION ( 'NONE',  ( -0.0000000000000000000, -0.0000000000000000000, 1.000000000000000000 ) ) ;
#229 = EDGE_LOOP ( 'NONE', ( #185, #155, #125, #20 ) ) ;
#230 = FILL_AREA_STYLE ('',( #289 ) ) ;
#231 = EDGE_CURVE ( 'NONE', #347, #327, #218, .T. ) ;
#232 =( LENGTH_UNIT ( ) NAMED_UNIT ( * ) SI_UNIT ( .MILLI., .METRE. ) );
#233 = EDGE_LOOP ( 'NONE', ( #92, #28, #188, #121 ) ) ;
#234 =( NAMED_UNIT ( * ) SI_UNIT ( $, .STERADIAN. ) SOLID_ANGLE_UNIT ( ) );
#235 = CARTESIAN_POINT ( 'NONE',  ( 0.0000000000000000000, 0.0000000000000000000, -10.00000000000000000 ) ) ;
#236 = STYLED_ITEM ( 'NONE', ( #283 ), #209 ) ;
#237 = DIRECTION ( 'NONE',  ( 0.0000000000000000000, 0.0000000000000000000, 1.000000000000000000 ) ) ;
#238 =( NAMED_UNIT ( * ) SI_UNIT ( $, .STERADIAN. ) SOLID_ANGLE_UNIT ( ) );
#239 = ADVANCED_FACE ( 'NONE', ( #328 ), #214, .T. ) ;
#240 = EDGE_CURVE ( 'NONE', #216, #263, #378, .T. ) ;
#241 = VERTEX_POINT ( 'NONE', #186 ) ;
#242 = FACE_OUTER_BOUND ( 'NONE', #55, .T. ) ;
#243 = CARTESIAN_POINT ( 'NONE',  ( -0.7500000000000006700, 0.0000000000000000000, 10.00000000000000000 ) ) ;
#244 = MECHANICAL_DESIGN_GEOMETRIC_PRESENTATION_REPRESENTATION (  '', ( #220 ), #337 ) ;
#245 = CARTESIAN_POINT ( 'NONE',  ( -0.3919416137645387300, 4.799900427493905600E-017, 9.950000000000001100 ) ) ;
#246 = ORIENTED_EDGE ( 'NONE', *, *, #253, .T. ) ;
#247 = MECHANICAL_DESIGN_GEOMETRIC_PRESENTATION_REPRESENTATION (  '', ( #86 ), #146 ) ;
#248 = STYLED_ITEM ( 'NONE', ( #63 ), #178 ) ;
#249 = ORIENTED_EDGE ( 'NONE', *, *, #27, .F. ) ;
#250 = APPLICATION_PROTOCOL_DEFINITION ( 'draft international standard', 'automotive_design', 1998, #226 ) ;
#251 = FACE_BOUND ( 'NONE', #17, .T. ) ;
#252 = SHAPE_DEFINITION_REPRESENTATION ( #16, #133 ) ;
#253 = EDGE_CURVE ( 'NONE', #162, #355, #339, .T. ) ;
#254 =( NAMED_UNIT ( * ) SI_UNIT ( $, .STERADIAN. ) SOLID_ANGLE_UNIT ( ) );
#255 = ORIENTED_EDGE ( 'NONE', *, *, #70, .F. ) ;
#256 = CIRCLE ( 'NONE', #331, 0.3919416137645387300 ) ;
#257 = SURFACE_STYLE_FILL_AREA ( #40 ) ;
#258 =( NAMED_UNIT ( * ) PLANE_ANGLE_UNIT ( ) SI_UNIT ( $, .RADIAN. ) );
#259 = PRESENTATION_STYLE_ASSIGNMENT (( #323 ) ) ;
#260 = CIRCLE ( 'NONE', #274, 0.3919416137645387300 ) ;
#261 = PRESENTATION_LAYER_ASSIGNMENT (  '', '', ( #225 ) ) ;
#262 =( GEOMETRIC_REPRESENTATION_CONTEXT ( 3 ) GLOBAL_UNCERTAINTY_ASSIGNED_CONTEXT ( ( #279 ) ) GLOBAL_UNIT_ASSIGNED_CONTEXT ( ( #272, #35, #238 ) ) REPRESENTATION_CONTEXT ( 'NONE', 'WORKASPACE' ) );
#263 = VERTEX_POINT ( 'NONE', #245 ) ;
#264 = AXIS2_PLACEMENT_3D ( 'NONE', #324, #37, #127 ) ;
#265 = ORIENTED_EDGE ( 'NONE', *, *, #231, .T. ) ;
#266 = SURFACE_SIDE_STYLE ('',( #172 ) ) ;
#267 = PRESENTATION_STYLE_ASSIGNMENT (( #15 ) ) ;
#268 = SURFACE_STYLE_FILL_AREA ( #230 ) ;
#269 = CARTESIAN_POINT ( 'NONE',  ( 0.7500000000000006700, 9.184850993605157100E-017, 10.00000000000000000 ) ) ;
#270 = AXIS2_PLACEMENT_3D ( 'NONE', #105, #304, #163 ) ;
#271 = UNCERTAINTY_MEASURE_WITH_UNIT (LENGTH_MEASURE( 1.000000000000000100E-005 ), #187, 'distance_accuracy_value', 'NONE');
#272 =( LENGTH_UNIT ( ) NAMED_UNIT ( * ) SI_UNIT ( .MILLI., .METRE. ) );
#273 =( NAMED_UNIT ( * ) SI_UNIT ( $, .STERADIAN. ) SOLID_ANGLE_UNIT ( ) );
#274 = AXIS2_PLACEMENT_3D ( 'NONE', #204, #26, #384 ) ;
#275 = ORIENTED_EDGE ( 'NONE', *, *, #222, .T. ) ;
#276 = SURFACE_SIDE_STYLE ('',( #377 ) ) ;
#277 = DIRECTION ( 'NONE',  ( -0.0000000000000000000, -0.0000000000000000000, 1.000000000000000000 ) ) ;
#278 = ADVANCED_FACE ( 'NONE', ( #224 ), #360, .T. ) ;
#279 = UNCERTAINTY_MEASURE_WITH_UNIT (LENGTH_MEASURE( 1.000000000000000100E-005 ), #272, 'distance_accuracy_value', 'NONE');
#280 = SURFACE_SIDE_STYLE ('',( #21 ) ) ;
#281 =( LENGTH_UNIT ( ) NAMED_UNIT ( * ) SI_UNIT ( .MILLI., .METRE. ) );
#282 = EDGE_LOOP ( 'NONE', ( #370, #223 ) ) ;
#283 = PRESENTATION_STYLE_ASSIGNMENT (( #75 ) ) ;
#284 = PRODUCT_CONTEXT ( 'NONE', #59, 'mechanical' ) ;
#285 = CARTESIAN_POINT ( 'NONE',  ( -0.4244503531721835500, 5.198017664092781900E-017, 0.0000000000000000000 ) ) ;
#286 =( NAMED_UNIT ( * ) PLANE_ANGLE_UNIT ( ) SI_UNIT ( $, .RADIAN. ) );
#287 = SURFACE_STYLE_FILL_AREA ( #358 ) ;
#288 = DIRECTION ( 'NONE',  ( -0.0000000000000000000, -0.0000000000000000000, -1.000000000000000000 ) ) ;
#289 = FILL_AREA_STYLE_COLOUR ( '', #36 ) ;
#290 = CARTESIAN_POINT ( 'NONE',  ( 0.0000000000000000000, 0.0000000000000000000, 0.0000000000000000000 ) ) ;
#291 = FACE_OUTER_BOUND ( 'NONE', #376, .T. ) ;
#292 = EDGE_CURVE ( 'NONE', #216, #46, #349, .T. ) ;
#293 = MANIFOLD_SOLID_BREP ( 'ÇÐ³ý-À­Éì1', #315 ) ;
#294 = ORIENTED_EDGE ( 'NONE', *, *, #240, .F. ) ;
#295 = VECTOR ( 'NONE', #277, 1000.000000000000000 ) ;
#296 = DIRECTION ( 'NONE',  ( 0.0000000000000000000, 0.0000000000000000000, 1.000000000000000000 ) ) ;
#297 = AXIS2_PLACEMENT_3D ( 'NONE', #215, #364, #104 ) ;
#298 = DIRECTION ( 'NONE',  ( 1.000000000000000000, 0.0000000000000000000, -0.0000000000000000000 ) ) ;
#299 = AXIS2_PLACEMENT_3D ( 'NONE', #1, #296, #298 ) ;
#300 = PRESENTATION_LAYER_ASSIGNMENT (  '', '', ( #352 ) ) ;
#301 =( NAMED_UNIT ( * ) SI_UNIT ( $, .STERADIAN. ) SOLID_ANGLE_UNIT ( ) );
#302 = FILL_AREA_STYLE_COLOUR ( '', #106 ) ;
#303 = ORIENTED_EDGE ( 'NONE', *, *, #195, .F. ) ;
#304 = DIRECTION ( 'NONE',  ( 0.0000000000000000000, 0.0000000000000000000, 1.000000000000000000 ) ) ;
#305 = EDGE_CURVE ( 'NONE', #162, #386, #150, .T. ) ;
#306 = CARTESIAN_POINT ( 'NONE',  ( 0.0000000000000000000, 0.0000000000000000000, 10.00000000000000000 ) ) ;
#307 =( LENGTH_UNIT ( ) NAMED_UNIT ( * ) SI_UNIT ( .MILLI., .METRE. ) );
#308 = ORIENTED_EDGE ( 'NONE', *, *, #305, .F. ) ;
#309 =( GEOMETRIC_REPRESENTATION_CONTEXT ( 3 ) GLOBAL_UNCERTAINTY_ASSIGNED_CONTEXT ( ( #39 ) ) GLOBAL_UNIT_ASSIGNED_CONTEXT ( ( #335, #74, #273 ) ) REPRESENTATION_CONTEXT ( 'NONE', 'WORKASPACE' ) );
#310 = EDGE_CURVE ( 'NONE', #32, #241, #12, .T. ) ;
#311 = ORIENTED_EDGE ( 'NONE', *, *, #18, .F. ) ;
#312 =( NAMED_UNIT ( * ) PLANE_ANGLE_UNIT ( ) SI_UNIT ( $, .RADIAN. ) );
#313 = STYLED_ITEM ( 'NONE', ( #267 ), #293 ) ;
#314 = DIRECTION ( 'NONE',  ( 1.000000000000000000, 0.0000000000000000000, 0.0000000000000000000 ) ) ;
#315 = CLOSED_SHELL ( 'NONE', ( #209, #102, #278, #164, #2, #137, #124, #178, #44, #239 ) ) ;
#316 = COLOUR_RGB ( '',0.5019607843137254800, 1.000000000000000000, 0.5019607843137254800 ) ;
#317 = EDGE_CURVE ( 'NONE', #355, #132, #48, .T. ) ;
#318 = FACE_OUTER_BOUND ( 'NONE', #338, .T. ) ;
#319 = CARTESIAN_POINT ( 'NONE',  ( 0.3919416137645387300, 0.0000000000000000000, 10.00000000000000000 ) ) ;
#320 = AXIS2_PLACEMENT_3D ( 'NONE', #109, #157, #78 ) ;
#321 = ORIENTED_EDGE ( 'NONE', *, *, #103, .T. ) ;
#322 =( GEOMETRIC_REPRESENTATION_CONTEXT ( 3 ) GLOBAL_UNCERTAINTY_ASSIGNED_CONTEXT ( ( #342 ) ) GLOBAL_UNIT_ASSIGNED_CONTEXT ( ( #30, #361, #234 ) ) REPRESENTATION_CONTEXT ( 'NONE', 'WORKASPACE' ) );
#323 = SURFACE_STYLE_USAGE ( .BOTH. , #101 ) ;
#324 = CARTESIAN_POINT ( 'NONE',  ( 0.0000000000000000000, 0.0000000000000000000, -10.00000000000000000 ) ) ;
#325 = AXIS2_PLACEMENT_3D ( 'NONE', #119, #228, #354 ) ;
#326 = SURFACE_STYLE_USAGE ( .BOTH. , #266 ) ;
#327 = VERTEX_POINT ( 'NONE', #198 ) ;
#328 = FACE_OUTER_BOUND ( 'NONE', #282, .T. ) ;
#329 = COLOUR_RGB ( '',0.5019607843137254800, 0.5019607843137254800, 0.5019607843137254800 ) ;
#330 = FILL_AREA_STYLE_COLOUR ( '', #57 ) ;
#331 = AXIS2_PLACEMENT_3D ( 'NONE', #306, #43, #332 ) ;
#332 = DIRECTION ( 'NONE',  ( 1.000000000000000000, 0.0000000000000000000, 0.0000000000000000000 ) ) ;
#333 = CARTESIAN_POINT ( 'NONE',  ( -0.4244503531721835500, 5.198017664092781900E-017, -10.00000000000000000 ) ) ;
#334 = CARTESIAN_POINT ( 'NONE',  ( 0.0000000000000000000, 0.0000000000000000000, 10.00000000000000000 ) ) ;
#335 =( LENGTH_UNIT ( ) NAMED_UNIT ( * ) SI_UNIT ( .MILLI., .METRE. ) );
#336 =( NAMED_UNIT ( * ) PLANE_ANGLE_UNIT ( ) SI_UNIT ( $, .RADIAN. ) );
#337 =( GEOMETRIC_REPRESENTATION_CONTEXT ( 3 ) GLOBAL_UNCERTAINTY_ASSIGNED_CONTEXT ( ( #213 ) ) GLOBAL_UNIT_ASSIGNED_CONTEXT ( ( #307, #312, #348 ) ) REPRESENTATION_CONTEXT ( 'NONE', 'WORKASPACE' ) );
#338 = EDGE_LOOP ( 'NONE', ( #148, #85, #174, #359 ) ) ;
#339 = LINE ( 'NONE', #333, #80 ) ;
#340 = PRESENTATION_STYLE_ASSIGNMENT (( #24 ) ) ;
#341 = CYLINDRICAL_SURFACE ( 'NONE', #112, 0.7500000000000006700 ) ;
#342 = UNCERTAINTY_MEASURE_WITH_UNIT (LENGTH_MEASURE( 1.000000000000000100E-005 ), #30, 'distance_accuracy_value', 'NONE');
#343 = PRESENTATION_LAYER_ASSIGNMENT (  '', '', ( #236 ) ) ;
#344 = ORIENTED_EDGE ( 'NONE', *, *, #390, .F. ) ;
#345 = DIRECTION ( 'NONE',  ( 1.000000000000000000, 0.0000000000000000000, 0.0000000000000000000 ) ) ;
#346 = FILL_AREA_STYLE_COLOUR ( '', #167 ) ;
#347 = VERTEX_POINT ( 'NONE', #9 ) ;
#348 =( NAMED_UNIT ( * ) SI_UNIT ( $, .STERADIAN. ) SOLID_ANGLE_UNIT ( ) );
#349 = LINE ( 'NONE', #77, #295 ) ;
#350 = COLOUR_RGB ( '',0.5019607843137254800, 0.5019607843137254800, 0.5019607843137254800 ) ;
#351 = CIRCLE ( 'NONE', #61, 0.4244503531721835500 ) ;
#352 = STYLED_ITEM ( 'NONE', ( #62 ), #239 ) ;
#353 = DIRECTION ( 'NONE',  ( -0.0000000000000000000, -0.0000000000000000000, -1.000000000000000000 ) ) ;
#354 = DIRECTION ( 'NONE',  ( 1.000000000000000000, 0.0000000000000000000, 0.0000000000000000000 ) ) ;
#355 = VERTEX_POINT ( 'NONE', #285 ) ;
#356 = AXIS2_PLACEMENT_3D ( 'NONE', #175, #71, #122 ) ;
#357 = CARTESIAN_POINT ( 'NONE',  ( 0.0000000000000000000, 0.0000000000000000000, 10.00000000000000000 ) ) ;
#358 = FILL_AREA_STYLE ('',( #330 ) ) ;
#359 = ORIENTED_EDGE ( 'NONE', *, *, #27, .T. ) ;
#360 = CYLINDRICAL_SURFACE ( 'NONE', #297, 0.7500000000000006700 ) ;
#361 =( NAMED_UNIT ( * ) PLANE_ANGLE_UNIT ( ) SI_UNIT ( $, .RADIAN. ) );
#362 = DIRECTION ( 'NONE',  ( -1.000000000000000000, 0.0000000000000000000, 0.0000000000000000000 ) ) ;
#363 = MECHANICAL_DESIGN_GEOMETRIC_PRESENTATION_REPRESENTATION (  '', ( #225 ), #206 ) ;
#364 = DIRECTION ( 'NONE',  ( -0.0000000000000000000, -0.0000000000000000000, -1.000000000000000000 ) ) ;
#365 = SURFACE_STYLE_FILL_AREA ( #50 ) ;
#366 = AXIS2_PLACEMENT_3D ( 'NONE', #184, #38, #367 ) ;
#367 = DIRECTION ( 'NONE',  ( 1.000000000000000000, 0.0000000000000000000, 0.0000000000000000000 ) ) ;
#368 = UNCERTAINTY_MEASURE_WITH_UNIT (LENGTH_MEASURE( 1.000000000000000100E-005 ), #83, 'distance_accuracy_value', 'NONE');
#369 = FILL_AREA_STYLE_COLOUR ( '', #33 ) ;
#370 = ORIENTED_EDGE ( 'NONE', *, *, #240, .T. ) ;
#371 = VECTOR ( 'NONE', #130, 1000.000000000000000 ) ;
#372 = DIRECTION ( 'NONE',  ( -1.000000000000000000, 0.0000000000000000000, 0.0000000000000000000 ) ) ;
#373 = PRODUCT_DEFINITION_CONTEXT ( 'detailed design', #226, 'design' ) ;
#374 = DIRECTION ( 'NONE',  ( 0.0000000000000000000, 0.0000000000000000000, -1.000000000000000000 ) ) ;
#375 = APPLICATION_PROTOCOL_DEFINITION ( 'draft international standard', 'automotive_design', 1998, #59 ) ;
#376 = EDGE_LOOP ( 'NONE', ( #265, #100 ) ) ;
#377 = SURFACE_STYLE_FILL_AREA ( #82 ) ;
#378 = CIRCLE ( 'NONE', #366, 0.3919416137645387300 ) ;
#379 = SURFACE_STYLE_FILL_AREA ( #385 ) ;
#380 = DIRECTION ( 'NONE',  ( -0.0000000000000000000, -0.0000000000000000000, -1.000000000000000000 ) ) ;
#381 = CYLINDRICAL_SURFACE ( 'NONE', #131, 0.3919416137645387300 ) ;
#382 = DIRECTION ( 'NONE',  ( 0.0000000000000000000, 0.0000000000000000000, 1.000000000000000000 ) ) ;
#383 = PRODUCT_DEFINITION ( 'Î´Öª', '', #197, #373 ) ;
#384 = DIRECTION ( 'NONE',  ( 1.000000000000000000, 0.0000000000000000000, 0.0000000000000000000 ) ) ;
#385 = FILL_AREA_STYLE ('',( #154 ) ) ;
#386 = VERTEX_POINT ( 'NONE', #56 ) ;
#387 = CIRCLE ( 'NONE', #356, 0.7500000000000006700 ) ;
#388 = DIRECTION ( 'NONE',  ( 1.000000000000000000, 0.0000000000000000000, -0.0000000000000000000 ) ) ;
#389 =( NAMED_UNIT ( * ) SI_UNIT ( $, .STERADIAN. ) SOLID_ANGLE_UNIT ( ) );
#390 = EDGE_CURVE ( 'NONE', #386, #132, #126, .T. ) ;
ENDSEC;
END-ISO-10303-21;
