ISO-10303-21;
HEADER;
FILE_DESCRIPTION((''),'2;1');
FILE_NAME('PF-5D_ASM','2019-03-07T',('Gavin'),(''),
'PRO/ENGINEER BY PARAMETRIC TECHNOLOGY CORPORATION, 2009440',
'PRO/ENGINEER BY PARAMETRIC TECHNOLOGY CORPORATION, 2009440','');
FILE_SCHEMA(('CONFIG_CONTROL_DESIGN'));
ENDSEC;
DATA;
#1=DIRECTION('',(0.E0,0.E0,1.E0));
#2=VECTOR('',#1,1.5E1);
#3=CARTESIAN_POINT('',(0.E0,4.35E0,-7.5E0));
#4=LINE('',#3,#2);
#5=DIRECTION('',(0.E0,-1.E0,0.E0));
#6=VECTOR('',#5,8.7E0);
#7=CARTESIAN_POINT('',(0.E0,4.35E0,7.5E0));
#8=LINE('',#7,#6);
#9=DIRECTION('',(0.E0,0.E0,-1.E0));
#10=VECTOR('',#9,1.04E1);
#11=CARTESIAN_POINT('',(0.E0,-4.35E0,7.5E0));
#12=LINE('',#11,#10);
#13=DIRECTION('',(0.E0,7.071067811865E-1,-7.071067811865E-1));
#14=VECTOR('',#13,6.505382386916E0);
#15=CARTESIAN_POINT('',(0.E0,-4.35E0,-2.9E0));
#16=LINE('',#15,#14);
#17=DIRECTION('',(0.E0,1.E0,0.E0));
#18=VECTOR('',#17,4.1E0);
#19=CARTESIAN_POINT('',(0.E0,2.5E-1,-7.5E0));
#20=LINE('',#19,#18);
#21=CARTESIAN_POINT('',(0.E0,2.15E0,-4.E-1));
#22=DIRECTION('',(-1.E0,0.E0,0.E0));
#23=DIRECTION('',(0.E0,1.E0,0.E0));
#24=AXIS2_PLACEMENT_3D('',#21,#22,#23);
#26=CARTESIAN_POINT('',(0.E0,2.15E0,-4.E-1));
#27=DIRECTION('',(-1.E0,0.E0,0.E0));
#28=DIRECTION('',(0.E0,-1.E0,0.E0));
#29=AXIS2_PLACEMENT_3D('',#26,#27,#28);
#31=CARTESIAN_POINT('',(0.E0,2.15E0,5.1E0));
#32=DIRECTION('',(-1.E0,0.E0,0.E0));
#33=DIRECTION('',(0.E0,1.E0,0.E0));
#34=AXIS2_PLACEMENT_3D('',#31,#32,#33);
#36=CARTESIAN_POINT('',(0.E0,2.15E0,5.1E0));
#37=DIRECTION('',(-1.E0,0.E0,0.E0));
#38=DIRECTION('',(0.E0,-1.E0,0.E0));
#39=AXIS2_PLACEMENT_3D('',#36,#37,#38);
#41=DIRECTION('',(1.E0,0.E0,0.E0));
#42=VECTOR('',#41,5.6E0);
#43=CARTESIAN_POINT('',(0.E0,4.35E0,-7.5E0));
#44=LINE('',#43,#42);
#45=CARTESIAN_POINT('',(2.8E0,4.35E0,-4.5E0));
#46=DIRECTION('',(0.E0,1.E0,0.E0));
#47=DIRECTION('',(1.E0,0.E0,0.E0));
#48=AXIS2_PLACEMENT_3D('',#45,#46,#47);
#50=CARTESIAN_POINT('',(2.8E0,4.35E0,-4.5E0));
#51=DIRECTION('',(0.E0,1.E0,0.E0));
#52=DIRECTION('',(-1.E0,0.E0,0.E0));
#53=AXIS2_PLACEMENT_3D('',#50,#51,#52);
#55=DIRECTION('',(1.E0,0.E0,0.E0));
#56=VECTOR('',#55,5.6E0);
#57=CARTESIAN_POINT('',(0.E0,2.5E-1,-7.5E0));
#58=LINE('',#57,#56);
#59=DIRECTION('',(1.E0,0.E0,0.E0));
#60=VECTOR('',#59,5.6E0);
#61=CARTESIAN_POINT('',(0.E0,-4.35E0,-2.9E0));
#62=LINE('',#61,#60);
#63=DIRECTION('',(1.E0,0.E0,0.E0));
#64=VECTOR('',#63,5.6E0);
#65=CARTESIAN_POINT('',(0.E0,-4.35E0,7.5E0));
#66=LINE('',#65,#64);
#67=DIRECTION('',(1.E0,0.E0,0.E0));
#68=VECTOR('',#67,5.6E0);
#69=CARTESIAN_POINT('',(0.E0,4.35E0,7.5E0));
#70=LINE('',#69,#68);
#71=CARTESIAN_POINT('',(2.8E0,-1.05E0,7.5E0));
#72=DIRECTION('',(0.E0,0.E0,1.E0));
#73=DIRECTION('',(0.E0,-1.E0,0.E0));
#74=AXIS2_PLACEMENT_3D('',#71,#72,#73);
#76=CARTESIAN_POINT('',(2.8E0,-1.05E0,7.5E0));
#77=DIRECTION('',(0.E0,0.E0,1.E0));
#78=DIRECTION('',(0.E0,1.E0,0.E0));
#79=AXIS2_PLACEMENT_3D('',#76,#77,#78);
#81=DIRECTION('',(0.E0,0.E0,1.E0));
#82=VECTOR('',#81,1.5E1);
#83=CARTESIAN_POINT('',(5.6E0,4.35E0,-7.5E0));
#84=LINE('',#83,#82);
#85=DIRECTION('',(0.E0,1.E0,0.E0));
#86=VECTOR('',#85,4.1E0);
#87=CARTESIAN_POINT('',(5.6E0,2.5E-1,-7.5E0));
#88=LINE('',#87,#86);
#89=DIRECTION('',(0.E0,7.071067811865E-1,-7.071067811865E-1));
#90=VECTOR('',#89,6.505382386916E0);
#91=CARTESIAN_POINT('',(5.6E0,-4.35E0,-2.9E0));
#92=LINE('',#91,#90);
#93=DIRECTION('',(0.E0,0.E0,-1.E0));
#94=VECTOR('',#93,1.04E1);
#95=CARTESIAN_POINT('',(5.6E0,-4.35E0,7.5E0));
#96=LINE('',#95,#94);
#97=DIRECTION('',(0.E0,-1.E0,0.E0));
#98=VECTOR('',#97,8.7E0);
#99=CARTESIAN_POINT('',(5.6E0,4.35E0,7.5E0));
#100=LINE('',#99,#98);
#101=CARTESIAN_POINT('',(5.6E0,2.15E0,-4.E-1));
#102=DIRECTION('',(-1.E0,0.E0,0.E0));
#103=DIRECTION('',(0.E0,1.E0,0.E0));
#104=AXIS2_PLACEMENT_3D('',#101,#102,#103);
#106=CARTESIAN_POINT('',(5.6E0,2.15E0,-4.E-1));
#107=DIRECTION('',(-1.E0,0.E0,0.E0));
#108=DIRECTION('',(0.E0,-1.E0,0.E0));
#109=AXIS2_PLACEMENT_3D('',#106,#107,#108);
#111=CARTESIAN_POINT('',(5.6E0,2.15E0,5.1E0));
#112=DIRECTION('',(-1.E0,0.E0,0.E0));
#113=DIRECTION('',(0.E0,1.E0,0.E0));
#114=AXIS2_PLACEMENT_3D('',#111,#112,#113);
#116=CARTESIAN_POINT('',(5.6E0,2.15E0,5.1E0));
#117=DIRECTION('',(-1.E0,0.E0,0.E0));
#118=DIRECTION('',(0.E0,-1.E0,0.E0));
#119=AXIS2_PLACEMENT_3D('',#116,#117,#118);
#121=DIRECTION('',(1.E0,0.E0,0.E0));
#122=VECTOR('',#121,5.6E0);
#123=CARTESIAN_POINT('',(0.E0,3.75E0,-4.E-1));
#124=LINE('',#123,#122);
#125=DIRECTION('',(1.E0,0.E0,0.E0));
#126=VECTOR('',#125,5.6E0);
#127=CARTESIAN_POINT('',(0.E0,5.5E-1,-4.E-1));
#128=LINE('',#127,#126);
#129=DIRECTION('',(1.E0,0.E0,0.E0));
#130=VECTOR('',#129,5.6E0);
#131=CARTESIAN_POINT('',(0.E0,3.75E0,5.1E0));
#132=LINE('',#131,#130);
#133=DIRECTION('',(1.E0,0.E0,0.E0));
#134=VECTOR('',#133,5.6E0);
#135=CARTESIAN_POINT('',(0.E0,5.5E-1,5.1E0));
#136=LINE('',#135,#134);
#137=DIRECTION('',(0.E0,0.E0,-1.E0));
#138=VECTOR('',#137,6.5E0);
#139=CARTESIAN_POINT('',(2.8E0,-2.3E0,7.5E0));
#140=LINE('',#139,#138);
#141=DIRECTION('',(0.E0,0.E0,-1.E0));
#142=VECTOR('',#141,6.5E0);
#143=CARTESIAN_POINT('',(2.8E0,2.E-1,7.5E0));
#144=LINE('',#143,#142);
#145=CARTESIAN_POINT('',(2.8E0,-1.05E0,1.E0));
#146=DIRECTION('',(0.E0,0.E0,1.E0));
#147=DIRECTION('',(0.E0,-1.E0,0.E0));
#148=AXIS2_PLACEMENT_3D('',#145,#146,#147);
#150=CARTESIAN_POINT('',(2.8E0,-1.05E0,1.E0));
#151=DIRECTION('',(0.E0,0.E0,1.E0));
#152=DIRECTION('',(0.E0,1.E0,0.E0));
#153=AXIS2_PLACEMENT_3D('',#150,#151,#152);
#155=DIRECTION('',(0.E0,-1.E0,0.E0));
#156=VECTOR('',#155,1.E-1);
#157=CARTESIAN_POINT('',(4.65E0,4.35E0,-4.5E0));
#158=LINE('',#157,#156);
#159=DIRECTION('',(0.E0,-1.E0,0.E0));
#160=VECTOR('',#159,1.E-1);
#161=CARTESIAN_POINT('',(9.5E-1,4.35E0,-4.5E0));
#162=LINE('',#161,#160);
#163=CARTESIAN_POINT('',(2.8E0,4.25E0,-4.5E0));
#164=DIRECTION('',(0.E0,1.E0,0.E0));
#165=DIRECTION('',(1.E0,0.E0,0.E0));
#166=AXIS2_PLACEMENT_3D('',#163,#164,#165);
#168=CARTESIAN_POINT('',(2.8E0,4.25E0,-4.5E0));
#169=DIRECTION('',(0.E0,1.E0,0.E0));
#170=DIRECTION('',(-1.E0,0.E0,0.E0));
#171=AXIS2_PLACEMENT_3D('',#168,#169,#170);
#173=CARTESIAN_POINT('',(0.E0,4.35E0,-7.5E0));
#174=CARTESIAN_POINT('',(0.E0,4.35E0,7.5E0));
#175=VERTEX_POINT('',#173);
#176=VERTEX_POINT('',#174);
#177=CARTESIAN_POINT('',(0.E0,-4.35E0,7.5E0));
#178=VERTEX_POINT('',#177);
#179=CARTESIAN_POINT('',(0.E0,-4.35E0,-2.9E0));
#180=VERTEX_POINT('',#179);
#181=CARTESIAN_POINT('',(0.E0,2.5E-1,-7.5E0));
#182=VERTEX_POINT('',#181);
#183=CARTESIAN_POINT('',(5.6E0,4.35E0,-7.5E0));
#184=CARTESIAN_POINT('',(5.6E0,4.35E0,7.5E0));
#185=VERTEX_POINT('',#183);
#186=VERTEX_POINT('',#184);
#187=CARTESIAN_POINT('',(5.6E0,-4.35E0,7.5E0));
#188=VERTEX_POINT('',#187);
#189=CARTESIAN_POINT('',(5.6E0,-4.35E0,-2.9E0));
#190=VERTEX_POINT('',#189);
#191=CARTESIAN_POINT('',(5.6E0,2.5E-1,-7.5E0));
#192=VERTEX_POINT('',#191);
#193=CARTESIAN_POINT('',(0.E0,3.75E0,-4.E-1));
#194=CARTESIAN_POINT('',(0.E0,5.5E-1,-4.E-1));
#195=VERTEX_POINT('',#193);
#196=VERTEX_POINT('',#194);
#197=CARTESIAN_POINT('',(0.E0,3.75E0,5.1E0));
#198=CARTESIAN_POINT('',(0.E0,5.5E-1,5.1E0));
#199=VERTEX_POINT('',#197);
#200=VERTEX_POINT('',#198);
#201=CARTESIAN_POINT('',(5.6E0,3.75E0,-4.E-1));
#202=CARTESIAN_POINT('',(5.6E0,5.5E-1,-4.E-1));
#203=VERTEX_POINT('',#201);
#204=VERTEX_POINT('',#202);
#205=CARTESIAN_POINT('',(5.6E0,3.75E0,5.1E0));
#206=CARTESIAN_POINT('',(5.6E0,5.5E-1,5.1E0));
#207=VERTEX_POINT('',#205);
#208=VERTEX_POINT('',#206);
#209=CARTESIAN_POINT('',(4.65E0,4.25E0,-4.5E0));
#210=CARTESIAN_POINT('',(9.5E-1,4.25E0,-4.5E0));
#211=VERTEX_POINT('',#209);
#212=VERTEX_POINT('',#210);
#213=CARTESIAN_POINT('',(4.65E0,4.35E0,-4.5E0));
#214=CARTESIAN_POINT('',(9.5E-1,4.35E0,-4.5E0));
#215=VERTEX_POINT('',#213);
#216=VERTEX_POINT('',#214);
#217=CARTESIAN_POINT('',(2.8E0,-2.3E0,1.E0));
#218=CARTESIAN_POINT('',(2.8E0,2.E-1,1.E0));
#219=VERTEX_POINT('',#217);
#220=VERTEX_POINT('',#218);
#221=CARTESIAN_POINT('',(2.8E0,-2.3E0,7.5E0));
#222=CARTESIAN_POINT('',(2.8E0,2.E-1,7.5E0));
#223=VERTEX_POINT('',#221);
#224=VERTEX_POINT('',#222);
#225=CARTESIAN_POINT('',(0.E0,0.E0,0.E0));
#226=DIRECTION('',(1.E0,0.E0,0.E0));
#227=DIRECTION('',(0.E0,-1.E0,0.E0));
#228=AXIS2_PLACEMENT_3D('',#225,#226,#227);
#229=PLANE('',#228);
#231=ORIENTED_EDGE('',*,*,#230,.T.);
#233=ORIENTED_EDGE('',*,*,#232,.T.);
#235=ORIENTED_EDGE('',*,*,#234,.T.);
#237=ORIENTED_EDGE('',*,*,#236,.T.);
#239=ORIENTED_EDGE('',*,*,#238,.T.);
#240=EDGE_LOOP('',(#231,#233,#235,#237,#239));
#241=FACE_OUTER_BOUND('',#240,.F.);
#243=ORIENTED_EDGE('',*,*,#242,.T.);
#245=ORIENTED_EDGE('',*,*,#244,.T.);
#246=EDGE_LOOP('',(#243,#245));
#247=FACE_BOUND('',#246,.F.);
#249=ORIENTED_EDGE('',*,*,#248,.T.);
#251=ORIENTED_EDGE('',*,*,#250,.T.);
#252=EDGE_LOOP('',(#249,#251));
#253=FACE_BOUND('',#252,.F.);
#255=CARTESIAN_POINT('',(0.E0,4.35E0,-7.5E0));
#256=DIRECTION('',(0.E0,1.E0,0.E0));
#257=DIRECTION('',(0.E0,0.E0,1.E0));
#258=AXIS2_PLACEMENT_3D('',#255,#256,#257);
#259=PLANE('',#258);
#260=ORIENTED_EDGE('',*,*,#230,.F.);
#262=ORIENTED_EDGE('',*,*,#261,.T.);
#264=ORIENTED_EDGE('',*,*,#263,.T.);
#266=ORIENTED_EDGE('',*,*,#265,.F.);
#267=EDGE_LOOP('',(#260,#262,#264,#266));
#268=FACE_OUTER_BOUND('',#267,.F.);
#270=ORIENTED_EDGE('',*,*,#269,.T.);
#272=ORIENTED_EDGE('',*,*,#271,.T.);
#273=EDGE_LOOP('',(#270,#272));
#274=FACE_BOUND('',#273,.F.);
#276=CARTESIAN_POINT('',(0.E0,2.5E-1,-7.5E0));
#277=DIRECTION('',(0.E0,0.E0,-1.E0));
#278=DIRECTION('',(0.E0,1.E0,0.E0));
#279=AXIS2_PLACEMENT_3D('',#276,#277,#278);
#280=PLANE('',#279);
#281=ORIENTED_EDGE('',*,*,#238,.F.);
#283=ORIENTED_EDGE('',*,*,#282,.T.);
#285=ORIENTED_EDGE('',*,*,#284,.T.);
#286=ORIENTED_EDGE('',*,*,#261,.F.);
#287=EDGE_LOOP('',(#281,#283,#285,#286));
#288=FACE_OUTER_BOUND('',#287,.F.);
#290=CARTESIAN_POINT('',(0.E0,-4.35E0,-2.9E0));
#291=DIRECTION('',(0.E0,-7.071067811865E-1,-7.071067811865E-1));
#292=DIRECTION('',(0.E0,7.071067811865E-1,-7.071067811865E-1));
#293=AXIS2_PLACEMENT_3D('',#290,#291,#292);
#294=PLANE('',#293);
#295=ORIENTED_EDGE('',*,*,#236,.F.);
#297=ORIENTED_EDGE('',*,*,#296,.T.);
#299=ORIENTED_EDGE('',*,*,#298,.T.);
#300=ORIENTED_EDGE('',*,*,#282,.F.);
#301=EDGE_LOOP('',(#295,#297,#299,#300));
#302=FACE_OUTER_BOUND('',#301,.F.);
#304=CARTESIAN_POINT('',(0.E0,-4.35E0,7.5E0));
#305=DIRECTION('',(0.E0,-1.E0,0.E0));
#306=DIRECTION('',(0.E0,0.E0,-1.E0));
#307=AXIS2_PLACEMENT_3D('',#304,#305,#306);
#308=PLANE('',#307);
#309=ORIENTED_EDGE('',*,*,#234,.F.);
#311=ORIENTED_EDGE('',*,*,#310,.T.);
#313=ORIENTED_EDGE('',*,*,#312,.T.);
#314=ORIENTED_EDGE('',*,*,#296,.F.);
#315=EDGE_LOOP('',(#309,#311,#313,#314));
#316=FACE_OUTER_BOUND('',#315,.F.);
#318=CARTESIAN_POINT('',(0.E0,4.35E0,7.5E0));
#319=DIRECTION('',(0.E0,0.E0,1.E0));
#320=DIRECTION('',(0.E0,-1.E0,0.E0));
#321=AXIS2_PLACEMENT_3D('',#318,#319,#320);
#322=PLANE('',#321);
#323=ORIENTED_EDGE('',*,*,#232,.F.);
#324=ORIENTED_EDGE('',*,*,#265,.T.);
#326=ORIENTED_EDGE('',*,*,#325,.T.);
#327=ORIENTED_EDGE('',*,*,#310,.F.);
#328=EDGE_LOOP('',(#323,#324,#326,#327));
#329=FACE_OUTER_BOUND('',#328,.F.);
#331=ORIENTED_EDGE('',*,*,#330,.T.);
#333=ORIENTED_EDGE('',*,*,#332,.T.);
#334=EDGE_LOOP('',(#331,#333));
#335=FACE_BOUND('',#334,.F.);
#337=CARTESIAN_POINT('',(5.6E0,0.E0,0.E0));
#338=DIRECTION('',(1.E0,0.E0,0.E0));
#339=DIRECTION('',(0.E0,-1.E0,0.E0));
#340=AXIS2_PLACEMENT_3D('',#337,#338,#339);
#341=PLANE('',#340);
#342=ORIENTED_EDGE('',*,*,#263,.F.);
#343=ORIENTED_EDGE('',*,*,#284,.F.);
#344=ORIENTED_EDGE('',*,*,#298,.F.);
#345=ORIENTED_EDGE('',*,*,#312,.F.);
#346=ORIENTED_EDGE('',*,*,#325,.F.);
#347=EDGE_LOOP('',(#342,#343,#344,#345,#346));
#348=FACE_OUTER_BOUND('',#347,.F.);
#350=ORIENTED_EDGE('',*,*,#349,.F.);
#352=ORIENTED_EDGE('',*,*,#351,.F.);
#353=EDGE_LOOP('',(#350,#352));
#354=FACE_BOUND('',#353,.F.);
#356=ORIENTED_EDGE('',*,*,#355,.F.);
#358=ORIENTED_EDGE('',*,*,#357,.F.);
#359=EDGE_LOOP('',(#356,#358));
#360=FACE_BOUND('',#359,.F.);
#362=CARTESIAN_POINT('',(0.E0,2.15E0,-4.E-1));
#363=DIRECTION('',(-1.E0,0.E0,0.E0));
#364=DIRECTION('',(0.E0,1.E0,0.E0));
#365=AXIS2_PLACEMENT_3D('',#362,#363,#364);
#366=CYLINDRICAL_SURFACE('',#365,1.6E0);
#367=ORIENTED_EDGE('',*,*,#242,.F.);
#369=ORIENTED_EDGE('',*,*,#368,.T.);
#370=ORIENTED_EDGE('',*,*,#349,.T.);
#372=ORIENTED_EDGE('',*,*,#371,.F.);
#373=EDGE_LOOP('',(#367,#369,#370,#372));
#374=FACE_OUTER_BOUND('',#373,.F.);
#376=CARTESIAN_POINT('',(0.E0,2.15E0,-4.E-1));
#377=DIRECTION('',(-1.E0,0.E0,0.E0));
#378=DIRECTION('',(0.E0,1.E0,0.E0));
#379=AXIS2_PLACEMENT_3D('',#376,#377,#378);
#380=CYLINDRICAL_SURFACE('',#379,1.6E0);
#381=ORIENTED_EDGE('',*,*,#244,.F.);
#382=ORIENTED_EDGE('',*,*,#371,.T.);
#383=ORIENTED_EDGE('',*,*,#351,.T.);
#384=ORIENTED_EDGE('',*,*,#368,.F.);
#385=EDGE_LOOP('',(#381,#382,#383,#384));
#386=FACE_OUTER_BOUND('',#385,.F.);
#388=CARTESIAN_POINT('',(0.E0,2.15E0,5.1E0));
#389=DIRECTION('',(-1.E0,0.E0,0.E0));
#390=DIRECTION('',(0.E0,1.E0,0.E0));
#391=AXIS2_PLACEMENT_3D('',#388,#389,#390);
#392=CYLINDRICAL_SURFACE('',#391,1.6E0);
#393=ORIENTED_EDGE('',*,*,#248,.F.);
#395=ORIENTED_EDGE('',*,*,#394,.T.);
#396=ORIENTED_EDGE('',*,*,#355,.T.);
#398=ORIENTED_EDGE('',*,*,#397,.F.);
#399=EDGE_LOOP('',(#393,#395,#396,#398));
#400=FACE_OUTER_BOUND('',#399,.F.);
#402=CARTESIAN_POINT('',(0.E0,2.15E0,5.1E0));
#403=DIRECTION('',(-1.E0,0.E0,0.E0));
#404=DIRECTION('',(0.E0,1.E0,0.E0));
#405=AXIS2_PLACEMENT_3D('',#402,#403,#404);
#406=CYLINDRICAL_SURFACE('',#405,1.6E0);
#407=ORIENTED_EDGE('',*,*,#250,.F.);
#408=ORIENTED_EDGE('',*,*,#397,.T.);
#409=ORIENTED_EDGE('',*,*,#357,.T.);
#410=ORIENTED_EDGE('',*,*,#394,.F.);
#411=EDGE_LOOP('',(#407,#408,#409,#410));
#412=FACE_OUTER_BOUND('',#411,.F.);
#414=CARTESIAN_POINT('',(2.8E0,-1.05E0,7.5E0));
#415=DIRECTION('',(0.E0,0.E0,1.E0));
#416=DIRECTION('',(0.E0,-1.E0,0.E0));
#417=AXIS2_PLACEMENT_3D('',#414,#415,#416);
#418=CYLINDRICAL_SURFACE('',#417,1.25E0);
#419=ORIENTED_EDGE('',*,*,#330,.F.);
#421=ORIENTED_EDGE('',*,*,#420,.T.);
#423=ORIENTED_EDGE('',*,*,#422,.T.);
#425=ORIENTED_EDGE('',*,*,#424,.F.);
#426=EDGE_LOOP('',(#419,#421,#423,#425));
#427=FACE_OUTER_BOUND('',#426,.F.);
#429=CARTESIAN_POINT('',(2.8E0,-1.05E0,7.5E0));
#430=DIRECTION('',(0.E0,0.E0,1.E0));
#431=DIRECTION('',(0.E0,-1.E0,0.E0));
#432=AXIS2_PLACEMENT_3D('',#429,#430,#431);
#433=CYLINDRICAL_SURFACE('',#432,1.25E0);
#434=ORIENTED_EDGE('',*,*,#332,.F.);
#435=ORIENTED_EDGE('',*,*,#424,.T.);
#437=ORIENTED_EDGE('',*,*,#436,.T.);
#438=ORIENTED_EDGE('',*,*,#420,.F.);
#439=EDGE_LOOP('',(#434,#435,#437,#438));
#440=FACE_OUTER_BOUND('',#439,.F.);
#442=CARTESIAN_POINT('',(0.E0,0.E0,1.E0));
#443=DIRECTION('',(0.E0,0.E0,1.E0));
#444=DIRECTION('',(0.E0,-1.E0,0.E0));
#445=AXIS2_PLACEMENT_3D('',#442,#443,#444);
#446=PLANE('',#445);
#447=ORIENTED_EDGE('',*,*,#422,.F.);
#448=ORIENTED_EDGE('',*,*,#436,.F.);
#449=EDGE_LOOP('',(#447,#448));
#450=FACE_OUTER_BOUND('',#449,.F.);
#452=CARTESIAN_POINT('',(2.8E0,4.35E0,-4.5E0));
#453=DIRECTION('',(0.E0,1.E0,0.E0));
#454=DIRECTION('',(1.E0,0.E0,0.E0));
#455=AXIS2_PLACEMENT_3D('',#452,#453,#454);
#456=CYLINDRICAL_SURFACE('',#455,1.85E0);
#457=ORIENTED_EDGE('',*,*,#269,.F.);
#459=ORIENTED_EDGE('',*,*,#458,.T.);
#461=ORIENTED_EDGE('',*,*,#460,.T.);
#463=ORIENTED_EDGE('',*,*,#462,.F.);
#464=EDGE_LOOP('',(#457,#459,#461,#463));
#465=FACE_OUTER_BOUND('',#464,.F.);
#467=CARTESIAN_POINT('',(2.8E0,4.35E0,-4.5E0));
#468=DIRECTION('',(0.E0,1.E0,0.E0));
#469=DIRECTION('',(1.E0,0.E0,0.E0));
#470=AXIS2_PLACEMENT_3D('',#467,#468,#469);
#471=CYLINDRICAL_SURFACE('',#470,1.85E0);
#472=ORIENTED_EDGE('',*,*,#271,.F.);
#473=ORIENTED_EDGE('',*,*,#462,.T.);
#475=ORIENTED_EDGE('',*,*,#474,.T.);
#476=ORIENTED_EDGE('',*,*,#458,.F.);
#477=EDGE_LOOP('',(#472,#473,#475,#476));
#478=FACE_OUTER_BOUND('',#477,.F.);
#480=CARTESIAN_POINT('',(0.E0,4.25E0,0.E0));
#481=DIRECTION('',(0.E0,1.E0,0.E0));
#482=DIRECTION('',(1.E0,0.E0,0.E0));
#483=AXIS2_PLACEMENT_3D('',#480,#481,#482);
#484=PLANE('',#483);
#485=ORIENTED_EDGE('',*,*,#460,.F.);
#486=ORIENTED_EDGE('',*,*,#474,.F.);
#487=EDGE_LOOP('',(#485,#486));
#488=FACE_OUTER_BOUND('',#487,.F.);
#490=CLOSED_SHELL('',(#254,#275,#289,#303,#317,#336,#361,#375,#387,#401,#413,
#428,#441,#451,#466,#479,#489));
#491=MANIFOLD_SOLID_BREP('',#490);
#493=DIMENSIONAL_EXPONENTS(0.E0,0.E0,0.E0,0.E0,0.E0,0.E0,0.E0);
#495=PLANE_ANGLE_MEASURE_WITH_UNIT(PLANE_ANGLE_MEASURE(1.745329251994E-2),#494);
#496=(CONVERSION_BASED_UNIT('DEGREE',#495)NAMED_UNIT(#493)PLANE_ANGLE_UNIT());
#498=UNCERTAINTY_MEASURE_WITH_UNIT(LENGTH_MEASURE(1.907369376367E-3),#492,
'closure',
'Maximum model space distance between geometric entities at asserted connectivities');
#500=CARTESIAN_POINT('',(0.E0,0.E0,0.E0));
#501=DIRECTION('',(0.E0,0.E0,1.E0));
#502=DIRECTION('',(1.E0,0.E0,0.E0));
#505=APPLICATION_CONTEXT(
'CONFIGURATION CONTROLLED 3D DESIGNS OF MECHANICAL PARTS AND ASSEMBLIES');
#506=APPLICATION_PROTOCOL_DEFINITION('international standard',
'config_control_design',1994,#505);
#507=DESIGN_CONTEXT('',#505,'design');
#508=MECHANICAL_CONTEXT('',#505,'mechanical');
#509=PRODUCT('PRT0008','PRT0008','NOT SPECIFIED',(#508));
#510=PRODUCT_DEFINITION_FORMATION_WITH_SPECIFIED_SOURCE('3','LAST_VERSION',#509,
.MADE.);
#519=CARTESIAN_POINT('',(0.E0,0.E0,0.E0));
#520=DIRECTION('',(0.E0,0.E0,1.E0));
#521=DIRECTION('',(1.E0,0.E0,0.E0));
#522=AXIS2_PLACEMENT_3D('',#519,#520,#521);
#523=ITEM_DEFINED_TRANSFORMATION('','',#503,#522);
#524=(REPRESENTATION_RELATIONSHIP('','',#504,#516)REPRESENTATION_RELATIONSHIP_WITH_TRANSFORMATION(#523)SHAPE_REPRESENTATION_RELATIONSHIP());
#525=CONTEXT_DEPENDENT_SHAPE_REPRESENTATION(#524,#518);
#527=DIMENSIONAL_EXPONENTS(0.E0,0.E0,0.E0,0.E0,0.E0,0.E0,0.E0);
#529=PLANE_ANGLE_MEASURE_WITH_UNIT(PLANE_ANGLE_MEASURE(1.745329251994E-2),#528);
#530=(CONVERSION_BASED_UNIT('DEGREE',#529)NAMED_UNIT(#527)PLANE_ANGLE_UNIT());
#532=UNCERTAINTY_MEASURE_WITH_UNIT(LENGTH_MEASURE(1.822151027032E-3),#526,
'closure',
'Maximum model space distance between geometric entities at asserted connectivities');
#534=CARTESIAN_POINT('',(0.E0,0.E0,0.E0));
#535=DIRECTION('',(0.E0,0.E0,1.E0));
#536=DIRECTION('',(1.E0,0.E0,0.E0));
#538=MECHANICAL_CONTEXT('',#505,'mechanical');
#539=PRODUCT('PF-5D_ASM','PF-5D_ASM','NOT SPECIFIED',(#538));
#540=PRODUCT_DEFINITION_FORMATION_WITH_SPECIFIED_SOURCE('3','LAST_VERSION',#539,
.MADE.);
#542=PRODUCT_CATEGORY('part','');
#543=PRODUCT_RELATED_PRODUCT_CATEGORY('assembly','',(#539));
#544=PRODUCT_CATEGORY_RELATIONSHIP('','',#542,#543);
#545=PRODUCT_CATEGORY('part','');
#546=PRODUCT_RELATED_PRODUCT_CATEGORY('detail','',(#509));
#547=PRODUCT_CATEGORY_RELATIONSHIP('','',#545,#546);
#548=SECURITY_CLASSIFICATION_LEVEL('unclassified');
#549=SECURITY_CLASSIFICATION('','',#548);
#550=CC_DESIGN_SECURITY_CLASSIFICATION(#549,(#510,#540,#517));
#551=APPROVAL_STATUS('approved');
#552=APPROVAL(#551,'');
#553=CC_DESIGN_APPROVAL(#552,(#549,#510,#540,#511,#541));
#554=CALENDAR_DATE(119,7,3);
#555=COORDINATED_UNIVERSAL_TIME_OFFSET(8,0,.AHEAD.);
#556=LOCAL_TIME(15,42,1.5E1,#555);
#557=DATE_AND_TIME(#554,#556);
#558=APPROVAL_DATE_TIME(#557,#552);
#559=DATE_TIME_ROLE('creation_date');
#560=CC_DESIGN_DATE_AND_TIME_ASSIGNMENT(#557,#559,(#511,#541));
#561=DATE_TIME_ROLE('classification_date');
#562=CC_DESIGN_DATE_AND_TIME_ASSIGNMENT(#557,#561,(#549));
#563=PERSON('UNSPECIFIED','UNSPECIFIED',$,$,$,$);
#564=ORGANIZATION('UNSPECIFIED','UNSPECIFIED','UNSPECIFIED');
#565=PERSON_AND_ORGANIZATION(#563,#564);
#566=APPROVAL_ROLE('approver');
#567=APPROVAL_PERSON_ORGANIZATION(#565,#552,#566);
#568=PERSON_AND_ORGANIZATION_ROLE('creator');
#569=CC_DESIGN_PERSON_AND_ORGANIZATION_ASSIGNMENT(#565,#568,(#510,#540,#511,
#541));
#570=PERSON_AND_ORGANIZATION_ROLE('design_supplier');
#571=CC_DESIGN_PERSON_AND_ORGANIZATION_ASSIGNMENT(#565,#570,(#510,#540));
#572=PERSON_AND_ORGANIZATION_ROLE('classification_officer');
#573=CC_DESIGN_PERSON_AND_ORGANIZATION_ASSIGNMENT(#565,#572,(#549));
#574=PERSON_AND_ORGANIZATION_ROLE('design_owner');
#575=CC_DESIGN_PERSON_AND_ORGANIZATION_ASSIGNMENT(#565,#574,(#539,#509));
#25=CIRCLE('',#24,1.6E0);
#30=CIRCLE('',#29,1.6E0);
#35=CIRCLE('',#34,1.6E0);
#40=CIRCLE('',#39,1.6E0);
#49=CIRCLE('',#48,1.85E0);
#54=CIRCLE('',#53,1.85E0);
#75=CIRCLE('',#74,1.25E0);
#80=CIRCLE('',#79,1.25E0);
#105=CIRCLE('',#104,1.6E0);
#110=CIRCLE('',#109,1.6E0);
#115=CIRCLE('',#114,1.6E0);
#120=CIRCLE('',#119,1.6E0);
#149=CIRCLE('',#148,1.25E0);
#154=CIRCLE('',#153,1.25E0);
#167=CIRCLE('',#166,1.85E0);
#172=CIRCLE('',#171,1.85E0);
#230=EDGE_CURVE('',#175,#176,#4,.T.);
#232=EDGE_CURVE('',#176,#178,#8,.T.);
#234=EDGE_CURVE('',#178,#180,#12,.T.);
#236=EDGE_CURVE('',#180,#182,#16,.T.);
#238=EDGE_CURVE('',#182,#175,#20,.T.);
#242=EDGE_CURVE('',#195,#196,#25,.T.);
#244=EDGE_CURVE('',#196,#195,#30,.T.);
#248=EDGE_CURVE('',#199,#200,#35,.T.);
#250=EDGE_CURVE('',#200,#199,#40,.T.);
#254=ADVANCED_FACE('',(#241,#247,#253),#229,.F.);
#261=EDGE_CURVE('',#175,#185,#44,.T.);
#263=EDGE_CURVE('',#185,#186,#84,.T.);
#265=EDGE_CURVE('',#176,#186,#70,.T.);
#269=EDGE_CURVE('',#215,#216,#49,.T.);
#271=EDGE_CURVE('',#216,#215,#54,.T.);
#275=ADVANCED_FACE('',(#268,#274),#259,.T.);
#282=EDGE_CURVE('',#182,#192,#58,.T.);
#284=EDGE_CURVE('',#192,#185,#88,.T.);
#289=ADVANCED_FACE('',(#288),#280,.T.);
#296=EDGE_CURVE('',#180,#190,#62,.T.);
#298=EDGE_CURVE('',#190,#192,#92,.T.);
#303=ADVANCED_FACE('',(#302),#294,.T.);
#310=EDGE_CURVE('',#178,#188,#66,.T.);
#312=EDGE_CURVE('',#188,#190,#96,.T.);
#317=ADVANCED_FACE('',(#316),#308,.T.);
#325=EDGE_CURVE('',#186,#188,#100,.T.);
#330=EDGE_CURVE('',#223,#224,#75,.T.);
#332=EDGE_CURVE('',#224,#223,#80,.T.);
#336=ADVANCED_FACE('',(#329,#335),#322,.T.);
#349=EDGE_CURVE('',#203,#204,#105,.T.);
#351=EDGE_CURVE('',#204,#203,#110,.T.);
#355=EDGE_CURVE('',#207,#208,#115,.T.);
#357=EDGE_CURVE('',#208,#207,#120,.T.);
#361=ADVANCED_FACE('',(#348,#354,#360),#341,.T.);
#368=EDGE_CURVE('',#195,#203,#124,.T.);
#371=EDGE_CURVE('',#196,#204,#128,.T.);
#375=ADVANCED_FACE('',(#374),#366,.F.);
#387=ADVANCED_FACE('',(#386),#380,.F.);
#394=EDGE_CURVE('',#199,#207,#132,.T.);
#397=EDGE_CURVE('',#200,#208,#136,.T.);
#401=ADVANCED_FACE('',(#400),#392,.F.);
#413=ADVANCED_FACE('',(#412),#406,.F.);
#420=EDGE_CURVE('',#223,#219,#140,.T.);
#422=EDGE_CURVE('',#219,#220,#149,.T.);
#424=EDGE_CURVE('',#224,#220,#144,.T.);
#428=ADVANCED_FACE('',(#427),#418,.F.);
#436=EDGE_CURVE('',#220,#219,#154,.T.);
#441=ADVANCED_FACE('',(#440),#433,.F.);
#451=ADVANCED_FACE('',(#450),#446,.T.);
#458=EDGE_CURVE('',#215,#211,#158,.T.);
#460=EDGE_CURVE('',#211,#212,#167,.T.);
#462=EDGE_CURVE('',#216,#212,#162,.T.);
#466=ADVANCED_FACE('',(#465),#456,.F.);
#474=EDGE_CURVE('',#212,#211,#172,.T.);
#479=ADVANCED_FACE('',(#478),#471,.F.);
#489=ADVANCED_FACE('',(#488),#484,.T.);
#492=(LENGTH_UNIT()NAMED_UNIT(*)SI_UNIT(.MILLI.,.METRE.));
#494=(NAMED_UNIT(*)PLANE_ANGLE_UNIT()SI_UNIT($,.RADIAN.));
#497=(NAMED_UNIT(*)SI_UNIT($,.STERADIAN.)SOLID_ANGLE_UNIT());
#499=(GEOMETRIC_REPRESENTATION_CONTEXT(3)GLOBAL_UNCERTAINTY_ASSIGNED_CONTEXT((
#498))GLOBAL_UNIT_ASSIGNED_CONTEXT((#492,#496,#497))REPRESENTATION_CONTEXT
('ID1','3'));
#503=AXIS2_PLACEMENT_3D('',#500,#501,#502);
#504=ADVANCED_BREP_SHAPE_REPRESENTATION('',(#503,#491),#499);
#511=PRODUCT_DEFINITION('design','',#510,#507);
#512=PRODUCT_DEFINITION_SHAPE('','SHAPE FOR PRT0008.',#511);
#513=SHAPE_DEFINITION_REPRESENTATION(#512,#504);
#514=SHAPE_DEFINITION_REPRESENTATION(#515,#516);
#515=PRODUCT_DEFINITION_SHAPE('','SHAPE FOR PF-5D_ASM.',#541);
#516=SHAPE_REPRESENTATION('',(#522,#537),#533);
#517=NEXT_ASSEMBLY_USAGE_OCCURRENCE('35','Next assembly relationship','PRT0008',
#541,#511,$);
#518=PRODUCT_DEFINITION_SHAPE('Placement #35',
'Placement of PRT0008 with respect to PF-5D_ASM',#517);
#526=(LENGTH_UNIT()NAMED_UNIT(*)SI_UNIT(.MILLI.,.METRE.));
#528=(NAMED_UNIT(*)PLANE_ANGLE_UNIT()SI_UNIT($,.RADIAN.));
#531=(NAMED_UNIT(*)SI_UNIT($,.STERADIAN.)SOLID_ANGLE_UNIT());
#533=(GEOMETRIC_REPRESENTATION_CONTEXT(3)GLOBAL_UNCERTAINTY_ASSIGNED_CONTEXT((
#532))GLOBAL_UNIT_ASSIGNED_CONTEXT((#526,#530,#531))REPRESENTATION_CONTEXT
('ID2','3'));
#537=AXIS2_PLACEMENT_3D('',#534,#535,#536);
#541=PRODUCT_DEFINITION('design','',#540,#507);
ENDSEC;
END-ISO-10303-21;
